Flow Bass Tab

Verse and chorus(with some slight variations)

G|-----------------------------------------------------------------|
D|--------7----7---------------------------------------------------|
A|--5---5------------------4-4--5------------9----9---------9---7--|
E|---------------5------5------------7---7----------7-----7--------|


2:nd verse fill-in

G|-----------------------------------------------------------------|
D|-----------------------------------------------------------------|
A|-------7--9-----9--9--9---7--------------------------------------|
E|-----------------------------------------------------------------|

 

 

Facebook

Mailing list