Stressa av Bass Tab

Verse

G|--------------------------------------------------------------------|
D|--------------------------------------------------------------------|
A|--3--3--3-----3-----------3---------3--3--3------3-----------3------|
E|-----------3-----------3-----3----------------3-----------3-----3---|


G|--------------------------------------------------------------------|
D|--------------------------------------------------------------------|
A|---------------6-----------6------------3--3--3-----3----3--1-------|
E|------4--4--4-----4-----4-----4------------------3------------------|

Chorus

G|--------------------------------------------------------------------|
D|--------------------------------------------------------------------|
A|---------------------6-----3----------1--1--1-----1---3-------------|
E|---1-2-3----4--4--4-----4----------------------1--------------------|

G|--------------------------------------------------------------------|
D|--------------------------------------------------------------------|
A|---------------------6-----3----------1--1--1-----1--3--------------|
E|---1-2-3----4--4--4-----4----------------------1------------6--4----|

Facebook

Mailing list