Utopi Bass Tab


Verse

G|----------------------------------------------------------|
D|----------------------------------------------------------|
A|--------4--7-----9-9-7-9-7---7----------------------------|
E|------5--------------------9------------------------------|

Chorus

G|----------------------------------------------------------|
D|---------------------9--7--6-----11--9--7-----4--5--7-----|
A|---------4--5--6--7-----------9------------5--------------|
E|------5---------------------------------------------------|

Facebook

Mailing list